ISO-10303-21;
HEADER;
FILE_DESCRIPTION (( 'STEP AP214' ),
    '1' );
FILE_NAME ('am-4283 Sleeve - Low Goal Raiser.STEP',
    '2020-05-08T20:22:21',
    ( '' ),
    ( '' ),
    'SwSTEP 2.0',
    'SolidWorks 2019',
    '' );
FILE_SCHEMA (( 'AUTOMOTIVE_DESIGN' ));
ENDSEC;

DATA;
#1 = ADVANCED_FACE ( 'NONE', ( #47 ), #154, .T. ) ;
#2 =( NAMED_UNIT ( * ) SI_UNIT ( $, .STERADIAN. ) SOLID_ANGLE_UNIT ( ) );
#3 =( BOUNDED_CURVE ( )  B_SPLINE_CURVE ( 3, ( #94, #73, #72, #104 ),
 .UNSPECIFIED., .F., .T. ) 
 B_SPLINE_CURVE_WITH_KNOTS ( ( 4, 4 ),
 ( 3.141592653589793116, 6.283185307179586232 ),
 .UNSPECIFIED. ) 
 CURVE ( )  GEOMETRIC_REPRESENTATION_ITEM ( )  RATIONAL_B_SPLINE_CURVE ( ( 1.000000000000000000, 0.3333333333333333703, 0.3333333333333333703, 1.000000000000000000 ) ) 
 REPRESENTATION_ITEM ( '' )  );
#4 =( GEOMETRIC_REPRESENTATION_CONTEXT ( 3 ) GLOBAL_UNCERTAINTY_ASSIGNED_CONTEXT ( ( #200 ) ) GLOBAL_UNIT_ASSIGNED_CONTEXT ( ( #162, #39, #2 ) ) REPRESENTATION_CONTEXT ( 'NONE', 'WORKASPACE' ) );
#6 = DIMENSIONAL_EXPONENTS ( 1.000000000000000000, 0.0000000000000000000, 0.0000000000000000000, 0.0000000000000000000, 0.0000000000000000000, 0.0000000000000000000, 0.0000000000000000000 ) ;
#5 = APPLICATION_PROTOCOL_DEFINITION ( 'draft international standard', 'automotive_design', 1998, #7 ) ;
#7 = APPLICATION_CONTEXT ( 'automotive_design' ) ;
#8 =( BOUNDED_CURVE ( )  B_SPLINE_CURVE ( 3, ( #43, #169, #63, #146 ),
 .UNSPECIFIED., .F., .T. ) 
 B_SPLINE_CURVE_WITH_KNOTS ( ( 4, 4 ),
 ( 3.141592653589793116, 6.283185307179586232 ),
 .UNSPECIFIED. ) 
 CURVE ( )  GEOMETRIC_REPRESENTATION_ITEM ( )  RATIONAL_B_SPLINE_CURVE ( ( 1.000000000000000000, 0.3333333333333333703, 0.3333333333333333703, 1.000000000000000000 ) ) 
 REPRESENTATION_ITEM ( '' )  );
#9 = PRESENTATION_LAYER_ASSIGNMENT (  '', '', ( #123 ) ) ;
#10 = EDGE_CURVE ( 'NONE', #15, #222, #214, .T. ) ;
#11 = AXIS2_PLACEMENT_3D ( 'NONE', #181, #147, #170 ) ;
#12 = ORIENTED_EDGE ( 'NONE', *, *, #114, .T. ) ;
#13 = DIMENSIONAL_EXPONENTS ( 1.000000000000000000, 0.0000000000000000000, 0.0000000000000000000, 0.0000000000000000000, 0.0000000000000000000, 0.0000000000000000000, 0.0000000000000000000 ) ;
#14 = ADVANCED_FACE ( 'NONE', ( #133, #64 ), #51, .T. ) ;
#15 = VERTEX_POINT ( 'NONE', #149 ) ;
#16 = EDGE_LOOP ( 'NONE', ( #155, #55, #207, #134 ) ) ;
#17 = EDGE_LOOP ( 'NONE', ( #218, #37 ) ) ;
#18 = AXIS2_PLACEMENT_3D ( 'NONE', #130, #131, #132 ) ;
#19 = EDGE_CURVE ( 'NONE', #42, #40, #8, .T. ) ;
#20 = PRODUCT_DEFINITION_FORMATION_WITH_SPECIFIED_SOURCE ( 'ANY', '', #189, .NOT_KNOWN. ) ;
#21 = AXIS2_PLACEMENT_3D ( 'NONE', #82, #83, #84 ) ;
#22 = EDGE_CURVE ( 'NONE', #15, #42, #156, .T. ) ;
#23 = MECHANICAL_DESIGN_GEOMETRIC_PRESENTATION_REPRESENTATION (  '', ( #123 ), #4 ) ;
#24 = EDGE_CURVE ( 'NONE', #27, #182, #115, .T. ) ;
#25 = COLOUR_RGB ( '',0.007843137254901960675, 0.2392156862745097867, 0.8235294117647058432 ) ;
#26 =( GEOMETRIC_REPRESENTATION_CONTEXT ( 3 ) GLOBAL_UNCERTAINTY_ASSIGNED_CONTEXT ( ( #172 ) ) GLOBAL_UNIT_ASSIGNED_CONTEXT ( ( #168, #180, #179 ) ) REPRESENTATION_CONTEXT ( 'NONE', 'WORKASPACE' ) );
#27 = VERTEX_POINT ( 'NONE', #78 ) ;
#28 = EDGE_CURVE ( 'NONE', #182, #195, #3, .T. ) ;
#29 = CLOSED_SHELL ( 'NONE', ( #1, #62, #36, #14, #159, #203 ) ) ;
#30 = EDGE_CURVE ( 'NONE', #221, #27, #163, .T. ) ;
#31 = AXIS2_PLACEMENT_3D ( 'NONE', #150, #151, #157 ) ;
#32 = COLOUR_RGB ( '',0.007843137254901960675, 0.2392156862745097867, 0.8235294117647058432 ) ;
#33 = CARTESIAN_POINT ( 'NONE',  ( -1.314999999999999947, 3.283444881889758360, 0.6574999999999999734 ) ) ;
#34 =( LENGTH_UNIT ( ) NAMED_UNIT ( * ) SI_UNIT ( $, .METRE. ) );
#35 = CARTESIAN_POINT ( 'NONE',  ( -1.314999999999999947, 4.598444881889773406, -0.6575000000000001954 ) ) ;
#36 = ADVANCED_FACE ( 'NONE', ( #105 ), #98, .F. ) ;
#37 = ORIENTED_EDGE ( 'NONE', *, *, #30, .T. ) ;
#38 = EDGE_LOOP ( 'NONE', ( #196, #201, #91, #56 ) ) ;
#39 =( NAMED_UNIT ( * ) PLANE_ANGLE_UNIT ( ) SI_UNIT ( $, .RADIAN. ) );
#40 = VERTEX_POINT ( 'NONE', #113 ) ;
#41 = AXIS2_PLACEMENT_3D ( 'NONE', #65, #202, #186 ) ;
#42 = VERTEX_POINT ( 'NONE', #80 ) ;
#43 = CARTESIAN_POINT ( 'NONE',  ( 0.0000000000000000000, -3.403444881889756690, -0.5374999999999999778 ) ) ;
#44 = PRODUCT_RELATED_PRODUCT_CATEGORY ( 'part', '', ( #189 ) ) ;
#45 = DIRECTION ( 'NONE',  ( 0.0000000000000000000, 0.0000000000000000000, -1.000000000000000000 ) ) ;
#46 = CARTESIAN_POINT ( 'NONE',  ( 0.0000000000000000000, 5.000000000000000000, 0.0000000000000000000 ) ) ;
#47 = FACE_OUTER_BOUND ( 'NONE', #38, .T. ) ;
#48 = SURFACE_SIDE_STYLE ('',( #69 ) ) ;
#49 = FILL_AREA_STYLE ('',( #164 ) ) ;
#50 = EDGE_CURVE ( 'NONE', #221, #195, #110, .T. ) ;
#51 = PLANE ( 'NONE',  #11 ) ;
#53 = CARTESIAN_POINT ( 'NONE',  ( 0.0000000000000000000, 4.478444881889771523, -0.5374999999999999778 ) ) ;
#52 = DIMENSIONAL_EXPONENTS ( 1.000000000000000000, 0.0000000000000000000, 0.0000000000000000000, 0.0000000000000000000, 0.0000000000000000000, 0.0000000000000000000, 0.0000000000000000000 ) ;
#54 = DIRECTION ( 'NONE',  ( -0.0000000000000000000, -1.000000000000000000, -0.0000000000000000000 ) ) ;
#55 = ORIENTED_EDGE ( 'NONE', *, *, #167, .T. ) ;
#56 = ORIENTED_EDGE ( 'NONE', *, *, #24, .F. ) ;
#57 = EDGE_LOOP ( 'NONE', ( #176, #87 ) ) ;
#58 =( BOUNDED_CURVE ( )  B_SPLINE_CURVE ( 3, ( #141, #142, #143, #144 ),
 .UNSPECIFIED., .F., .T. ) 
 B_SPLINE_CURVE_WITH_KNOTS ( ( 4, 4 ),
 ( 0.0000000000000000000, 3.141592653589793116 ),
 .UNSPECIFIED. ) 
 CURVE ( )  GEOMETRIC_REPRESENTATION_ITEM ( )  RATIONAL_B_SPLINE_CURVE ( ( 1.000000000000000000, 0.3333333333333333703, 0.3333333333333333703, 1.000000000000000000 ) ) 
 REPRESENTATION_ITEM ( '' )  );
#59 = ORIENTED_EDGE ( 'NONE', *, *, #92, .T. ) ;
#60 = AXIS2_PLACEMENT_3D ( 'NONE', #99, #79, #112 ) ;
#61 =( GEOMETRIC_REPRESENTATION_CONTEXT ( 3 ) GLOBAL_UNCERTAINTY_ASSIGNED_CONTEXT ( ( #215 ) ) GLOBAL_UNIT_ASSIGNED_CONTEXT ( ( #106, #116, #117 ) ) REPRESENTATION_CONTEXT ( 'NONE', 'WORKASPACE' ) );
#62 = ADVANCED_FACE ( 'NONE', ( #108 ), #111, .F. ) ;
#63 = CARTESIAN_POINT ( 'NONE',  ( 1.074999999999999956, -4.478444881889773299, 0.5375000000000000888 ) ) ;
#64 = FACE_OUTER_BOUND ( 'NONE', #17, .T. ) ;
#65 = CARTESIAN_POINT ( 'NONE',  ( 0.0000000000000000000, 0.0000000000000000000, 0.0000000000000000000 ) ) ;
#66 = MANIFOLD_SOLID_BREP ( 'Cut-Extrude1', #29 ) ;
#67 = CARTESIAN_POINT ( 'NONE',  ( 0.0000000000000000000, 5.000000000000000000, -0.5374999999999999778 ) ) ;
#68 = ORIENTED_EDGE ( 'NONE', *, *, #28, .T. ) ;
#69 = SURFACE_STYLE_FILL_AREA ( #49 ) ;
#70 = MECHANICAL_DESIGN_GEOMETRIC_PRESENTATION_REPRESENTATION (  '', ( #204 ), #61 ) ;
#71 = DIRECTION ( 'NONE',  ( -0.0000000000000000000, -1.000000000000000000, -0.0000000000000000000 ) ) ;
#72 = CARTESIAN_POINT ( 'NONE',  ( 1.314999999999999725, -4.598444881889774294, 0.6575000000000001954 ) ) ;
#73 = CARTESIAN_POINT ( 'NONE',  ( 1.314999999999999725, -3.283444881889755251, -0.6575000000000003064 ) ) ;
#74 = CARTESIAN_POINT ( 'NONE',  ( 8.052052704393848613E-17, 3.283444881889757916, 0.6574999999999999734 ) ) ;
#75 = CARTESIAN_POINT ( 'NONE',  ( 0.0000000000000000000, 4.598444881889773406, -0.6574999999999999734 ) ) ;
#76 = CARTESIAN_POINT ( 'NONE',  ( 0.0000000000000000000, 5.000000000000000000, -0.6574999999999999734 ) ) ;
#77 = DIRECTION ( 'NONE',  ( -0.0000000000000000000, -1.000000000000000000, -0.0000000000000000000 ) ) ;
#78 = CARTESIAN_POINT ( 'NONE',  ( 0.0000000000000000000, 4.598444881889773406, -0.6574999999999999734 ) ) ;
#79 = DIRECTION ( 'NONE',  ( -0.0000000000000000000, -1.000000000000000000, -0.0000000000000000000 ) ) ;
#80 = CARTESIAN_POINT ( 'NONE',  ( 0.0000000000000000000, -3.403444881889756690, -0.5374999999999999778 ) ) ;
#81 = DIRECTION ( 'NONE',  ( -0.0000000000000000000, -1.000000000000000000, -0.0000000000000000000 ) ) ;
#82 = CARTESIAN_POINT ( 'NONE',  ( 0.0000000000000000000, 5.000000000000000000, 0.0000000000000000000 ) ) ;
#83 = DIRECTION ( 'NONE',  ( -0.0000000000000000000, -1.000000000000000000, -0.0000000000000000000 ) ) ;
#84 = DIRECTION ( 'NONE',  ( 0.0000000000000000000, 0.0000000000000000000, -1.000000000000000000 ) ) ;
#85 = SURFACE_SIDE_STYLE ('',( #90 ) ) ;
#86 = SURFACE_STYLE_USAGE ( .BOTH. , #85 ) ;
#87 = ORIENTED_EDGE ( 'NONE', *, *, #114, .F. ) ;
#88 = FILL_AREA_STYLE_COLOUR ( '', #32 ) ;
#89 = FILL_AREA_STYLE ('',( #88 ) ) ;
#90 = SURFACE_STYLE_FILL_AREA ( #89 ) ;
#91 = ORIENTED_EDGE ( 'NONE', *, *, #28, .F. ) ;
#92 = EDGE_CURVE ( 'NONE', #195, #182, #185, .T. ) ;
#93 = PRESENTATION_STYLE_ASSIGNMENT (( #86 ) ) ;
#94 = CARTESIAN_POINT ( 'NONE',  ( 0.0000000000000000000, -3.283444881889754807, -0.6574999999999999734 ) ) ;
#95 =( LENGTH_UNIT ( ) NAMED_UNIT ( * ) SI_UNIT ( $, .METRE. ) );
#96 = LENGTH_MEASURE_WITH_UNIT ( LENGTH_MEASURE( 0.02539999999999999897 ), #95 );
#97 = ADVANCED_BREP_SHAPE_REPRESENTATION ( 'am-4283 Sleeve - Low Goal Raiser', ( #66, #41 ), #26 ) ;
#98 = CYLINDRICAL_SURFACE ( 'NONE', #60, 0.5374999999999999778 ) ;
#99 = CARTESIAN_POINT ( 'NONE',  ( 0.0000000000000000000, 5.000000000000000000, 0.0000000000000000000 ) ) ;
#100 = CARTESIAN_POINT ( 'NONE',  ( 1.314999999999999947, 3.283444881889758360, 0.6574999999999998623 ) ) ;
#101 = EDGE_LOOP ( 'NONE', ( #153, #210 ) ) ;
#102 = AXIS2_PLACEMENT_3D ( 'NONE', #46, #54, #45 ) ;
#103 = CARTESIAN_POINT ( 'NONE',  ( 1.314999999999999947, 4.598444881889773406, -0.6574999999999998623 ) ) ;
#104 = CARTESIAN_POINT ( 'NONE',  ( 8.052052704393848613E-17, -4.598444881889775182, 0.6574999999999999734 ) ) ;
#105 = FACE_OUTER_BOUND ( 'NONE', #198, .T. ) ;
#106 =( CONVERSION_BASED_UNIT ( 'INCH', #96 ) LENGTH_UNIT ( ) NAMED_UNIT ( #13 ) );
#107 =( BOUNDED_CURVE ( )  B_SPLINE_CURVE ( 3, ( #124, #125, #126, #127 ),
 .UNSPECIFIED., .F., .T. ) 
 B_SPLINE_CURVE_WITH_KNOTS ( ( 4, 4 ),
 ( 1.224646799147353700E-16, 3.141592653589793116 ),
 .UNSPECIFIED. ) 
 CURVE ( )  GEOMETRIC_REPRESENTATION_ITEM ( )  RATIONAL_B_SPLINE_CURVE ( ( 1.000000000000000000, 0.3333333333333333703, 0.3333333333333333703, 1.000000000000000000 ) ) 
 REPRESENTATION_ITEM ( '' )  );
#108 = FACE_OUTER_BOUND ( 'NONE', #16, .T. ) ;
#109 = CARTESIAN_POINT ( 'NONE',  ( 8.052052704393848613E-17, 5.000000000000000000, 0.6574999999999999734 ) ) ;
#110 = LINE ( 'NONE', #109, #175 ) ;
#111 = CYLINDRICAL_SURFACE ( 'NONE', #21, 0.5374999999999999778 ) ;
#112 = DIRECTION ( 'NONE',  ( 0.0000000000000000000, 0.0000000000000000000, -1.000000000000000000 ) ) ;
#113 = CARTESIAN_POINT ( 'NONE',  ( 6.582476545417024321E-17, -4.478444881889773299, 0.5374999999999999778 ) ) ;
#114 = EDGE_CURVE ( 'NONE', #222, #15, #107, .T. ) ;
#115 = LINE ( 'NONE', #76, #216 ) ;
#116 =( NAMED_UNIT ( * ) PLANE_ANGLE_UNIT ( ) SI_UNIT ( $, .RADIAN. ) );
#117 =( NAMED_UNIT ( * ) SI_UNIT ( $, .STERADIAN. ) SOLID_ANGLE_UNIT ( ) );
#118 = CARTESIAN_POINT ( 'NONE',  ( 8.052052704393848613E-17, -4.598444881889775182, 0.6574999999999999734 ) ) ;
#119 = CARTESIAN_POINT ( 'NONE',  ( -1.314999999999999725, -4.598444881889774294, 0.6575000000000001954 ) ) ;
#120 = CARTESIAN_POINT ( 'NONE',  ( -1.314999999999999725, -3.283444881889755251, -0.6574999999999999734 ) ) ;
#121 = CARTESIAN_POINT ( 'NONE',  ( 0.0000000000000000000, -3.283444881889754807, -0.6574999999999999734 ) ) ;
#122 = FACE_BOUND ( 'NONE', #101, .T. ) ;
#123 = STYLED_ITEM ( 'NONE', ( #165 ), #97 ) ;
#124 = CARTESIAN_POINT ( 'NONE',  ( 6.582476545417024321E-17, 3.403444881889759799, 0.5374999999999999778 ) ) ;
#125 = CARTESIAN_POINT ( 'NONE',  ( 1.075000000000000178, 3.403444881889759799, 0.5374999999999999778 ) ) ;
#126 = CARTESIAN_POINT ( 'NONE',  ( 1.075000000000000178, 4.478444881889771523, -0.5374999999999999778 ) ) ;
#127 = CARTESIAN_POINT ( 'NONE',  ( 0.0000000000000000000, 4.478444881889771523, -0.5374999999999999778 ) ) ;
#128 = FACE_OUTER_BOUND ( 'NONE', #184, .T. ) ;
#129 = PLANE ( 'NONE',  #18 ) ;
#130 = CARTESIAN_POINT ( 'NONE',  ( -0.6574999999999999734, -4.598444881889773406, 0.6574999999999984190 ) ) ;
#131 = DIRECTION ( 'NONE',  ( 0.0000000000000000000, -0.7071067811865424657, -0.7071067811865526798 ) ) ;
#132 = DIRECTION ( 'NONE',  ( 0.0000000000000000000, 0.7071067811865526798, -0.7071067811865424657 ) ) ;
#133 = FACE_BOUND ( 'NONE', #57, .T. ) ;
#134 = ORIENTED_EDGE ( 'NONE', *, *, #22, .F. ) ;
#135 = LINE ( 'NONE', #136, #219 ) ;
#136 = CARTESIAN_POINT ( 'NONE',  ( 6.582476545417024321E-17, 5.000000000000000000, 0.5374999999999999778 ) ) ;
#137 = DIRECTION ( 'NONE',  ( -0.0000000000000000000, -1.000000000000000000, -0.0000000000000000000 ) ) ;
#138 = CARTESIAN_POINT ( 'NONE',  ( 0.0000000000000000000, -3.283444881889754807, -0.6574999999999999734 ) ) ;
#139 = CARTESIAN_POINT ( 'NONE',  ( 8.052052704393848613E-17, -4.598444881889775182, 0.6574999999999999734 ) ) ;
#140 = FACE_OUTER_BOUND ( 'NONE', #188, .T. ) ;
#141 = CARTESIAN_POINT ( 'NONE',  ( 6.582476545417024321E-17, -4.478444881889773299, 0.5374999999999999778 ) ) ;
#142 = CARTESIAN_POINT ( 'NONE',  ( -1.074999999999999956, -4.478444881889773299, 0.5375000000000000888 ) ) ;
#143 = CARTESIAN_POINT ( 'NONE',  ( -1.074999999999999956, -3.403444881889756690, -0.5374999999999999778 ) ) ;
#144 = CARTESIAN_POINT ( 'NONE',  ( 0.0000000000000000000, -3.403444881889756690, -0.5374999999999999778 ) ) ;
#145 = CYLINDRICAL_SURFACE ( 'NONE', #31, 0.6574999999999999734 ) ;
#146 = CARTESIAN_POINT ( 'NONE',  ( 6.582476545417024321E-17, -4.478444881889773299, 0.5374999999999999778 ) ) ;
#147 = DIRECTION ( 'NONE',  ( 0.0000000000000000000, 0.7071067811865434649, 0.7071067811865515695 ) ) ;
#148 = CARTESIAN_POINT ( 'NONE',  ( -1.075000000000000178, 4.478444881889771523, -0.5375000000000000888 ) ) ;
#149 = CARTESIAN_POINT ( 'NONE',  ( 0.0000000000000000000, 4.478444881889771523, -0.5374999999999999778 ) ) ;
#150 = CARTESIAN_POINT ( 'NONE',  ( 0.0000000000000000000, 5.000000000000000000, 0.0000000000000000000 ) ) ;
#151 = DIRECTION ( 'NONE',  ( -0.0000000000000000000, -1.000000000000000000, -0.0000000000000000000 ) ) ;
#152 = CARTESIAN_POINT ( 'NONE',  ( 6.582476545417024321E-17, 3.403444881889759799, 0.5374999999999999778 ) ) ;
#153 = ORIENTED_EDGE ( 'NONE', *, *, #19, .F. ) ;
#154 = CYLINDRICAL_SURFACE ( 'NONE', #102, 0.6574999999999999734 ) ;
#155 = ORIENTED_EDGE ( 'NONE', *, *, #10, .T. ) ;
#156 = LINE ( 'NONE', #67, #183 ) ;
#157 = DIRECTION ( 'NONE',  ( 0.0000000000000000000, 0.0000000000000000000, -1.000000000000000000 ) ) ;
#158 = CARTESIAN_POINT ( 'NONE',  ( 8.052052704393848613E-17, 3.283444881889757916, 0.6574999999999999734 ) ) ;
#159 = ADVANCED_FACE ( 'NONE', ( #122, #128 ), #129, .T. ) ;
#160 = CARTESIAN_POINT ( 'NONE',  ( 0.0000000000000000000, 4.598444881889773406, -0.6574999999999999734 ) ) ;
#161 =( LENGTH_UNIT ( ) NAMED_UNIT ( * ) SI_UNIT ( $, .METRE. ) );
#162 =( CONVERSION_BASED_UNIT ( 'INCH', #171 ) LENGTH_UNIT ( ) NAMED_UNIT ( #52 ) );
#163 =( BOUNDED_CURVE ( )  B_SPLINE_CURVE ( 3, ( #74, #100, #103, #75 ),
 .UNSPECIFIED., .F., .T. ) 
 B_SPLINE_CURVE_WITH_KNOTS ( ( 4, 4 ),
 ( 1.224646799147352961E-16, 3.141592653589793116 ),
 .UNSPECIFIED. ) 
 CURVE ( )  GEOMETRIC_REPRESENTATION_ITEM ( )  RATIONAL_B_SPLINE_CURVE ( ( 1.000000000000000000, 0.3333333333333333703, 0.3333333333333333703, 1.000000000000000000 ) ) 
 REPRESENTATION_ITEM ( '' )  );
#164 = FILL_AREA_STYLE_COLOUR ( '', #25 ) ;
#165 = PRESENTATION_STYLE_ASSIGNMENT (( #173 ) ) ;
#166 = APPLICATION_PROTOCOL_DEFINITION ( 'draft international standard', 'automotive_design', 1998, #190 ) ;
#167 = EDGE_CURVE ( 'NONE', #222, #40, #135, .T. ) ;
#168 =( CONVERSION_BASED_UNIT ( 'INCH', #174 ) LENGTH_UNIT ( ) NAMED_UNIT ( #6 ) );
#169 = CARTESIAN_POINT ( 'NONE',  ( 1.074999999999999956, -3.403444881889756690, -0.5375000000000003109 ) ) ;
#170 = DIRECTION ( 'NONE',  ( 0.0000000000000000000, -0.7071067811865514585, 0.7071067811865433539 ) ) ;
#171 = LENGTH_MEASURE_WITH_UNIT ( LENGTH_MEASURE( 0.02539999999999999897 ), #34 );
#172 = UNCERTAINTY_MEASURE_WITH_UNIT (LENGTH_MEASURE( 1.000000000000000082E-05 ), #168, 'distance_accuracy_value', 'NONE');
#173 = SURFACE_STYLE_USAGE ( .BOTH. , #48 ) ;
#174 = LENGTH_MEASURE_WITH_UNIT ( LENGTH_MEASURE( 0.02539999999999999897 ), #161 );
#175 = VECTOR ( 'NONE', #81, 39.37007874015748143 ) ;
#176 = ORIENTED_EDGE ( 'NONE', *, *, #10, .F. ) ;
#177 = CARTESIAN_POINT ( 'NONE',  ( 6.582476545417024321E-17, 3.403444881889759799, 0.5374999999999999778 ) ) ;
#178 = CARTESIAN_POINT ( 'NONE',  ( 8.052052704393848613E-17, 3.283444881889757916, 0.6574999999999999734 ) ) ;
#179 =( NAMED_UNIT ( * ) SI_UNIT ( $, .STERADIAN. ) SOLID_ANGLE_UNIT ( ) );
#180 =( NAMED_UNIT ( * ) PLANE_ANGLE_UNIT ( ) SI_UNIT ( $, .RADIAN. ) );
#181 = CARTESIAN_POINT ( 'NONE',  ( -0.6574999999999999734, 4.598444881889771629, -0.6574999999999985301 ) ) ;
#182 = VERTEX_POINT ( 'NONE', #138 ) ;
#183 = VECTOR ( 'NONE', #71, 39.37007874015748143 ) ;
#184 = EDGE_LOOP ( 'NONE', ( #68, #59 ) ) ;
#185 =( BOUNDED_CURVE ( )  B_SPLINE_CURVE ( 3, ( #118, #119, #120, #121 ),
 .UNSPECIFIED., .F., .T. ) 
 B_SPLINE_CURVE_WITH_KNOTS ( ( 4, 4 ),
 ( 0.0000000000000000000, 3.141592653589793116 ),
 .UNSPECIFIED. ) 
 CURVE ( )  GEOMETRIC_REPRESENTATION_ITEM ( )  RATIONAL_B_SPLINE_CURVE ( ( 1.000000000000000000, 0.3333333333333333703, 0.3333333333333333703, 1.000000000000000000 ) ) 
 REPRESENTATION_ITEM ( '' )  );
#186 = DIRECTION ( 'NONE',  ( 1.000000000000000000, 0.0000000000000000000, 0.0000000000000000000 ) ) ;
#187 = SHAPE_DEFINITION_REPRESENTATION ( #213, #97 ) ;
#188 = EDGE_LOOP ( 'NONE', ( #192, #191, #193, #217 ) ) ;
#189 = PRODUCT ( 'am-4283 Sleeve - Low Goal Raiser', 'am-4283 Sleeve - Low Goal Raiser', '', ( #220 ) ) ;
#190 = APPLICATION_CONTEXT ( 'automotive_design' ) ;
#191 = ORIENTED_EDGE ( 'NONE', *, *, #211, .F. ) ;
#192 = ORIENTED_EDGE ( 'NONE', *, *, #50, .F. ) ;
#193 = ORIENTED_EDGE ( 'NONE', *, *, #24, .T. ) ;
#194 =( BOUNDED_CURVE ( )  B_SPLINE_CURVE ( 3, ( #160, #35, #33, #178 ),
 .UNSPECIFIED., .F., .T. ) 
 B_SPLINE_CURVE_WITH_KNOTS ( ( 4, 4 ),
 ( 3.141592653589793116, 6.283185307179586232 ),
 .UNSPECIFIED. ) 
 CURVE ( )  GEOMETRIC_REPRESENTATION_ITEM ( )  RATIONAL_B_SPLINE_CURVE ( ( 1.000000000000000000, 0.3333333333333333703, 0.3333333333333333703, 1.000000000000000000 ) ) 
 REPRESENTATION_ITEM ( '' )  );
#195 = VERTEX_POINT ( 'NONE', #139 ) ;
#196 = ORIENTED_EDGE ( 'NONE', *, *, #30, .F. ) ;
#197 = ORIENTED_EDGE ( 'NONE', *, *, #22, .T. ) ;
#198 = EDGE_LOOP ( 'NONE', ( #206, #12, #197, #209 ) ) ;
#199 = EDGE_CURVE ( 'NONE', #40, #42, #58, .T. ) ;
#200 = UNCERTAINTY_MEASURE_WITH_UNIT (LENGTH_MEASURE( 1.000000000000000082E-05 ), #162, 'distance_accuracy_value', 'NONE');
#201 = ORIENTED_EDGE ( 'NONE', *, *, #50, .T. ) ;
#202 = DIRECTION ( 'NONE',  ( 0.0000000000000000000, 0.0000000000000000000, 1.000000000000000000 ) ) ;
#203 = ADVANCED_FACE ( 'NONE', ( #140 ), #145, .T. ) ;
#204 = STYLED_ITEM ( 'NONE', ( #93 ), #66 ) ;
#205 = PRESENTATION_LAYER_ASSIGNMENT (  '', '', ( #204 ) ) ;
#206 = ORIENTED_EDGE ( 'NONE', *, *, #167, .F. ) ;
#207 = ORIENTED_EDGE ( 'NONE', *, *, #199, .T. ) ;
#208 = PRODUCT_DEFINITION_CONTEXT ( 'detailed design', #7, 'design' ) ;
#209 = ORIENTED_EDGE ( 'NONE', *, *, #19, .T. ) ;
#210 = ORIENTED_EDGE ( 'NONE', *, *, #199, .F. ) ;
#211 = EDGE_CURVE ( 'NONE', #27, #221, #194, .T. ) ;
#212 = PRODUCT_DEFINITION ( 'UNKNOWN', '', #20, #208 ) ;
#213 = PRODUCT_DEFINITION_SHAPE ( 'NONE', 'NONE',  #212 ) ;
#214 =( BOUNDED_CURVE ( )  B_SPLINE_CURVE ( 3, ( #53, #148, #223, #152 ),
 .UNSPECIFIED., .F., .T. ) 
 B_SPLINE_CURVE_WITH_KNOTS ( ( 4, 4 ),
 ( 3.141592653589793116, 6.283185307179586232 ),
 .UNSPECIFIED. ) 
 CURVE ( )  GEOMETRIC_REPRESENTATION_ITEM ( )  RATIONAL_B_SPLINE_CURVE ( ( 1.000000000000000000, 0.3333333333333333703, 0.3333333333333333703, 1.000000000000000000 ) ) 
 REPRESENTATION_ITEM ( '' )  );
#215 = UNCERTAINTY_MEASURE_WITH_UNIT (LENGTH_MEASURE( 1.000000000000000082E-05 ), #106, 'distance_accuracy_value', 'NONE');
#216 = VECTOR ( 'NONE', #77, 39.37007874015748143 ) ;
#217 = ORIENTED_EDGE ( 'NONE', *, *, #92, .F. ) ;
#218 = ORIENTED_EDGE ( 'NONE', *, *, #211, .T. ) ;
#219 = VECTOR ( 'NONE', #137, 39.37007874015748143 ) ;
#220 = PRODUCT_CONTEXT ( 'NONE', #190, 'mechanical' ) ;
#221 = VERTEX_POINT ( 'NONE', #158 ) ;
#222 = VERTEX_POINT ( 'NONE', #177 ) ;
#223 = CARTESIAN_POINT ( 'NONE',  ( -1.075000000000000178, 3.403444881889759799, 0.5374999999999999778 ) ) ;
ENDSEC;
END-ISO-10303-21;
